ISO-10303-21;
HEADER;
/* Generated by software containing ST-Developer
 * from STEP Tools, Inc. (www.steptools.com) 
 */
/* OPTION: using custom schema-name function */

FILE_DESCRIPTION(
/* description */ (''),
/* implementation_level */ '2;1');

FILE_NAME(
/* name */ 'ek_ENVELOPE_LNA_STRAIN_RELIEF_A1.stp',
/* time_stamp */ '2012-10-18T17:14:16-07:00',
/* author */ (''),
/* organization */ (''),
/* preprocessor_version */ 'ST-DEVELOPER v14',
/* originating_system */ 'SIEMENS PLM Software NX 8.0',
/* authorisation */ '');

FILE_SCHEMA (('AUTOMOTIVE_DESIGN { 1 0 10303 214 3 1 1 1 }'));
ENDSEC;

DATA;
#10=PROPERTY_DEFINITION_REPRESENTATION(#14,#12);
#11=PROPERTY_DEFINITION_REPRESENTATION(#15,#13);
#12=REPRESENTATION('',(#16),#244);
#13=REPRESENTATION('',(#17),#244);
#14=PROPERTY_DEFINITION('pmi validation property','',#19);
#15=PROPERTY_DEFINITION('pmi validation property','',#19);
#16=VALUE_REPRESENTATION_ITEM('number of annotations',COUNT_MEASURE(0.));
#17=VALUE_REPRESENTATION_ITEM('number of views',COUNT_MEASURE(0.));
#18=SHAPE_DEFINITION_REPRESENTATION(#19,#28);
#19=PRODUCT_DEFINITION_SHAPE('','',#20);
#20=PRODUCT_DEFINITION(' ','',#22,#21);
#21=PRODUCT_DEFINITION_CONTEXT('part definition',#27,'design');
#22=PRODUCT_DEFINITION_FORMATION_WITH_SPECIFIED_SOURCE(' ',' ',#24,
 .NOT_KNOWN.);
#23=PRODUCT_RELATED_PRODUCT_CATEGORY('part','',(#24));
#24=PRODUCT('ek_ENVELOPE_LNA_STRAIN_RELIEF_A1',
'ek_ENVELOPE_LNA_STRAIN_RELIEF_A1',' ',(#25));
#25=PRODUCT_CONTEXT(' ',#27,'mechanical');
#26=APPLICATION_PROTOCOL_DEFINITION('international standard',
'automotive_design',2010,#27);
#27=APPLICATION_CONTEXT(
'core data for automotive mechanical design processes');
#28=SHAPE_REPRESENTATION('ek_ENVELOPE_LNA_STRAIN_RELIEF_A1-None',(#166,#36,
#29),#244);
#29=GEOMETRIC_CURVE_SET('None',(#212,#119,#120,#121,#122));
#30=SURFACE_STYLE_USAGE(.BOTH.,#31);
#31=SURFACE_SIDE_STYLE('',(#32));
#32=SURFACE_STYLE_FILL_AREA(#33);
#33=FILL_AREA_STYLE('',(#34));
#34=FILL_AREA_STYLE_COLOUR('',#35);
#35=COLOUR_RGB('Light Azure Cyan',0.4,0.8,1.);
#36=MANIFOLD_SOLID_BREP('',#37);
#37=CLOSED_SHELL('',(#42,#43,#44,#45,#46,#47));
#38=PLANE('',#171);
#39=PLANE('',#174);
#40=PLANE('',#175);
#41=PLANE('',#176);
#42=ADVANCED_FACE('',(#50),#48,.F.);
#43=ADVANCED_FACE('',(#51),#38,.T.);
#44=ADVANCED_FACE('',(#52),#49,.T.);
#45=ADVANCED_FACE('',(#53),#39,.T.);
#46=ADVANCED_FACE('',(#54),#40,.F.);
#47=ADVANCED_FACE('',(#55),#41,.T.);
#48=CYLINDRICAL_SURFACE('',#169,250.);
#49=CYLINDRICAL_SURFACE('',#173,369.);
#50=FACE_OUTER_BOUND('',#56,.T.);
#51=FACE_OUTER_BOUND('',#57,.T.);
#52=FACE_OUTER_BOUND('',#58,.T.);
#53=FACE_OUTER_BOUND('',#59,.T.);
#54=FACE_OUTER_BOUND('',#60,.T.);
#55=FACE_OUTER_BOUND('',#61,.T.);
#56=EDGE_LOOP('',(#62,#63,#64,#65));
#57=EDGE_LOOP('',(#66,#67,#68,#69));
#58=EDGE_LOOP('',(#70,#71,#72,#73));
#59=EDGE_LOOP('',(#74,#75,#76,#77));
#60=EDGE_LOOP('',(#78,#79,#80,#81));
#61=EDGE_LOOP('',(#82,#83,#84,#85));
#62=ORIENTED_EDGE('',*,*,#94,.T.);
#63=ORIENTED_EDGE('',*,*,#95,.F.);
#64=ORIENTED_EDGE('',*,*,#96,.F.);
#65=ORIENTED_EDGE('',*,*,#97,.T.);
#66=ORIENTED_EDGE('',*,*,#98,.T.);
#67=ORIENTED_EDGE('',*,*,#99,.F.);
#68=ORIENTED_EDGE('',*,*,#94,.F.);
#69=ORIENTED_EDGE('',*,*,#100,.T.);
#70=ORIENTED_EDGE('',*,*,#101,.T.);
#71=ORIENTED_EDGE('',*,*,#102,.F.);
#72=ORIENTED_EDGE('',*,*,#98,.F.);
#73=ORIENTED_EDGE('',*,*,#103,.T.);
#74=ORIENTED_EDGE('',*,*,#104,.T.);
#75=ORIENTED_EDGE('',*,*,#96,.T.);
#76=ORIENTED_EDGE('',*,*,#105,.F.);
#77=ORIENTED_EDGE('',*,*,#101,.F.);
#78=ORIENTED_EDGE('',*,*,#97,.F.);
#79=ORIENTED_EDGE('',*,*,#104,.F.);
#80=ORIENTED_EDGE('',*,*,#103,.F.);
#81=ORIENTED_EDGE('',*,*,#100,.F.);
#82=ORIENTED_EDGE('',*,*,#95,.T.);
#83=ORIENTED_EDGE('',*,*,#99,.T.);
#84=ORIENTED_EDGE('',*,*,#102,.T.);
#85=ORIENTED_EDGE('',*,*,#105,.T.);
#86=VERTEX_POINT('',#218);
#87=VERTEX_POINT('',#219);
#88=VERTEX_POINT('',#221);
#89=VERTEX_POINT('',#223);
#90=VERTEX_POINT('',#227);
#91=VERTEX_POINT('',#228);
#92=VERTEX_POINT('',#233);
#93=VERTEX_POINT('',#234);
#94=EDGE_CURVE('',#86,#87,#106,.T.);
#95=EDGE_CURVE('',#88,#87,#127,.T.);
#96=EDGE_CURVE('',#89,#88,#107,.T.);
#97=EDGE_CURVE('',#89,#86,#128,.T.);
#98=EDGE_CURVE('',#90,#91,#108,.T.);
#99=EDGE_CURVE('',#87,#91,#129,.T.);
#100=EDGE_CURVE('',#86,#90,#130,.T.);
#101=EDGE_CURVE('',#92,#93,#109,.T.);
#102=EDGE_CURVE('',#91,#93,#131,.T.);
#103=EDGE_CURVE('',#90,#92,#132,.T.);
#104=EDGE_CURVE('',#92,#89,#133,.T.);
#105=EDGE_CURVE('',#93,#88,#134,.T.);
#106=CIRCLE('',#167,250.);
#107=CIRCLE('',#168,250.);
#108=CIRCLE('',#170,369.);
#109=CIRCLE('',#172,369.);
#110=INVISIBILITY((#148));
#111=CURVE_STYLE('',#115,POSITIVE_LENGTH_MEASURE(0.352777777777778),#165);
#112=CURVE_STYLE('',#116,POSITIVE_LENGTH_MEASURE(0.352777777777778),#165);
#113=CURVE_STYLE('',#117,POSITIVE_LENGTH_MEASURE(0.352777777777778),#165);
#114=CURVE_STYLE('',#118,POSITIVE_LENGTH_MEASURE(0.352777777777778),#165);
#115=DRAUGHTING_PRE_DEFINED_CURVE_FONT('continuous');
#116=DRAUGHTING_PRE_DEFINED_CURVE_FONT('continuous');
#117=DRAUGHTING_PRE_DEFINED_CURVE_FONT('continuous');
#118=DRAUGHTING_PRE_DEFINED_CURVE_FONT('continuous');
#119=TRIMMED_CURVE('Line1',#123,(PARAMETER_VALUE(0.)),(
PARAMETER_VALUE(1.)),.T.,.PARAMETER.);
#120=TRIMMED_CURVE('Line2',#124,(PARAMETER_VALUE(0.)),(
PARAMETER_VALUE(1.)),.T.,.PARAMETER.);
#121=TRIMMED_CURVE('Line3',#125,(PARAMETER_VALUE(0.)),(
PARAMETER_VALUE(1.)),.T.,.PARAMETER.);
#122=TRIMMED_CURVE('Line4',#126,(PARAMETER_VALUE(0.)),(
PARAMETER_VALUE(1.)),.T.,.PARAMETER.);
#123=LINE('Line1',#213,#135);
#124=LINE('Line2',#214,#136);
#125=LINE('Line3',#215,#137);
#126=LINE('Line4',#216,#138);
#127=LINE('',#220,#139);
#128=LINE('',#224,#140);
#129=LINE('',#229,#141);
#130=LINE('',#230,#142);
#131=LINE('',#235,#143);
#132=LINE('',#236,#144);
#133=LINE('',#238,#145);
#134=LINE('',#239,#146);
#135=VECTOR('',#179,119.);
#136=VECTOR('',#180,225.);
#137=VECTOR('',#181,119.);
#138=VECTOR('',#182,225.);
#139=VECTOR('',#185,1.);
#140=VECTOR('',#188,1.);
#141=VECTOR('',#193,1.);
#142=VECTOR('',#194,1.);
#143=VECTOR('',#199,1.);
#144=VECTOR('',#200,1.);
#145=VECTOR('',#203,1.);
#146=VECTOR('',#204,1.);
#147=PRESENTATION_LAYER_ASSIGNMENT('50','Layer 50',(#212));
#148=PRESENTATION_LAYER_ASSIGNMENT('10','Layer 10',(#119,#120,#121,#122));
#149=PRESENTATION_LAYER_ASSIGNMENT('1','Layer 1',(#36));
#150=STYLED_ITEM('',(#156),#212);
#151=STYLED_ITEM('',(#157),#119);
#152=STYLED_ITEM('',(#158),#120);
#153=STYLED_ITEM('',(#159),#121);
#154=STYLED_ITEM('',(#160),#122);
#155=STYLED_ITEM('',(#161),#36);
#156=PRESENTATION_STYLE_ASSIGNMENT((#162));
#157=PRESENTATION_STYLE_ASSIGNMENT((#111));
#158=PRESENTATION_STYLE_ASSIGNMENT((#112));
#159=PRESENTATION_STYLE_ASSIGNMENT((#113));
#160=PRESENTATION_STYLE_ASSIGNMENT((#114));
#161=PRESENTATION_STYLE_ASSIGNMENT((#30));
#162=POINT_STYLE('',#163,POSITIVE_LENGTH_MEASURE(3.),#164);
#163=PRE_DEFINED_POINT_MARKER_SYMBOL('plus');
#164=DRAUGHTING_PRE_DEFINED_COLOUR('yellow');
#165=DRAUGHTING_PRE_DEFINED_COLOUR('green');
#166=AXIS2_PLACEMENT_3D('',#211,#177,#178);
#167=AXIS2_PLACEMENT_3D('',#217,#183,#184);
#168=AXIS2_PLACEMENT_3D('',#222,#186,#187);
#169=AXIS2_PLACEMENT_3D('',#225,#189,#190);
#170=AXIS2_PLACEMENT_3D('',#226,#191,#192);
#171=AXIS2_PLACEMENT_3D('',#231,#195,#196);
#172=AXIS2_PLACEMENT_3D('',#232,#197,#198);
#173=AXIS2_PLACEMENT_3D('',#237,#201,#202);
#174=AXIS2_PLACEMENT_3D('',#240,#205,#206);
#175=AXIS2_PLACEMENT_3D('',#241,#207,#208);
#176=AXIS2_PLACEMENT_3D('',#242,#209,#210);
#177=DIRECTION('',(0.,0.,1.));
#178=DIRECTION('',(1.,0.,0.));
#179=DIRECTION('',(1.,0.,0.));
#180=DIRECTION('',(0.,0.,-1.));
#181=DIRECTION('',(-1.,0.,-8.66346527170458E-017));
#182=DIRECTION('',(0.,0.,1.));
#183=DIRECTION('',(0.,0.,-1.));
#184=DIRECTION('',(-1.,0.,0.));
#185=DIRECTION('',(0.,0.,-1.));
#186=DIRECTION('',(0.,0.,-1.));
#187=DIRECTION('',(-1.,0.,0.));
#188=DIRECTION('',(0.,0.,-1.));
#189=DIRECTION('',(0.,0.,-1.));
#190=DIRECTION('',(-1.,0.,0.));
#191=DIRECTION('',(0.,0.,-1.));
#192=DIRECTION('',(-1.,0.,0.));
#193=DIRECTION('',(0.573576436351047,-0.819152044288991,8.66346527170458E-017));
#194=DIRECTION('',(0.573576436351047,0.819152044288991,8.66346527170458E-017));
#195=DIRECTION('',(0.,0.,-1.));
#196=DIRECTION('',(-1.,0.,0.));
#197=DIRECTION('',(0.,0.,-1.));
#198=DIRECTION('',(-1.,0.,0.));
#199=DIRECTION('',(0.,0.,1.));
#200=DIRECTION('',(0.,0.,1.));
#201=DIRECTION('',(0.,0.,-1.));
#202=DIRECTION('',(-1.,0.,0.));
#203=DIRECTION('',(-0.573576436351047,-0.819152044288991,0.));
#204=DIRECTION('',(-0.573576436351047,0.819152044288991,0.));
#205=DIRECTION('',(0.,0.,1.));
#206=DIRECTION('',(1.,0.,0.));
#207=DIRECTION('',(0.819152044288991,-0.573576436351047,0.));
#208=DIRECTION('',(0.,0.,-1.));
#209=DIRECTION('',(-0.819152044288991,-0.573576436351047,0.));
#210=DIRECTION('',(0.,0.,-1.));
#211=CARTESIAN_POINT('',(0.,0.,0.));
#212=CARTESIAN_POINT('POINT_ABS',(0.,0.,0.));
#213=CARTESIAN_POINT('',(250.,0.,225.));
#214=CARTESIAN_POINT('',(369.,0.,225.));
#215=CARTESIAN_POINT('',(369.,0.,1.03095236733285E-014));
#216=CARTESIAN_POINT('',(250.,0.,0.));
#217=CARTESIAN_POINT('',(0.,0.,0.));
#218=CARTESIAN_POINT('',(143.394109087762,204.788011072248,0.));
#219=CARTESIAN_POINT('',(143.394109087762,-204.788011072248,0.));
#220=CARTESIAN_POINT('',(143.394109087762,-204.788011072248,225.));
#221=CARTESIAN_POINT('',(143.394109087762,-204.788011072248,225.));
#222=CARTESIAN_POINT('',(0.,0.,225.));
#223=CARTESIAN_POINT('',(143.394109087762,204.788011072248,225.));
#224=CARTESIAN_POINT('',(143.394109087762,204.788011072248,225.));
#225=CARTESIAN_POINT('',(0.,0.,0.));
#226=CARTESIAN_POINT('',(0.,0.,1.03095236733285E-014));
#227=CARTESIAN_POINT('',(211.649705013536,302.267104342638,1.03095236733285E-014));
#228=CARTESIAN_POINT('',(211.649705013536,-302.267104342638,1.03095236733285E-014));
#229=CARTESIAN_POINT('',(143.394109087762,-204.788011072248,0.));
#230=CARTESIAN_POINT('',(143.394109087762,204.788011072248,0.));
#231=CARTESIAN_POINT('',(143.394109087762,204.788011072248,5.15476183666423E-015));
#232=CARTESIAN_POINT('',(0.,0.,225.));
#233=CARTESIAN_POINT('',(211.649705013536,302.267104342638,225.));
#234=CARTESIAN_POINT('',(211.649705013536,-302.267104342638,225.));
#235=CARTESIAN_POINT('',(211.649705013536,-302.267104342638,0.));
#236=CARTESIAN_POINT('',(211.649705013536,302.267104342638,0.));
#237=CARTESIAN_POINT('',(0.,0.,0.));
#238=CARTESIAN_POINT('',(211.649705013536,302.267104342638,225.));
#239=CARTESIAN_POINT('',(211.649705013536,-302.267104342638,225.));
#240=CARTESIAN_POINT('',(211.649705013536,302.267104342638,225.));
#241=CARTESIAN_POINT('',(0.,0.,0.));
#242=CARTESIAN_POINT('',(0.,0.,0.));
#243=MECHANICAL_DESIGN_GEOMETRIC_PRESENTATION_REPRESENTATION('',(#150,#151,
#152,#153,#154,#155),#244);
#244=(
GEOMETRIC_REPRESENTATION_CONTEXT(3)
GLOBAL_UNCERTAINTY_ASSIGNED_CONTEXT((#245))
GLOBAL_UNIT_ASSIGNED_CONTEXT((#251,#247,#246))
REPRESENTATION_CONTEXT('ek_ENVELOPE_LNA_STRAIN_RELIEF_A1',
'TOP_LEVEL_ASSEMBLY_PART')
);
#245=UNCERTAINTY_MEASURE_WITH_UNIT(LENGTH_MEASURE(2.E-005),#251,
'DISTANCE_ACCURACY_VALUE','Maximum Tolerance applied to model');
#246=(
NAMED_UNIT(*)
SI_UNIT($,.STERADIAN.)
SOLID_ANGLE_UNIT()
);
#247=(
CONVERSION_BASED_UNIT('DEGREE',#249)
NAMED_UNIT(#248)
PLANE_ANGLE_UNIT()
);
#248=DIMENSIONAL_EXPONENTS(0.,0.,0.,0.,0.,0.,0.);
#249=PLANE_ANGLE_MEASURE_WITH_UNIT(PLANE_ANGLE_MEASURE(0.0174532925),#250);
#250=(
NAMED_UNIT(*)
PLANE_ANGLE_UNIT()
SI_UNIT($,.RADIAN.)
);
#251=(
LENGTH_UNIT()
NAMED_UNIT(*)
SI_UNIT(.MILLI.,.METRE.)
);
ENDSEC;
END-ISO-10303-21;
